.........

您现在的位置: 中国乐手网 >> 吉他技术专题 >> 电吉他 >> 电吉他技巧 >> 吉他教程正文
...

您想找的吉他教程是:

...

是九阴白骨爪还是鸡爪子?关于“Chicken Picking”

作者:未知    吉他教程来源:吉他中国论坛    点击数:518    更新时间:2006-8-27
   



        在9月2日吉他中国的“金属之夜”的演出上,我们看到孙辉老师在演奏一首乡村风格的乐曲时用到了“Chicken Picking”这一技巧。






        所谓“Chicken Picking”,就是用大拇指和食指夹Pick,中指和无名指拨弦的一种技法。代表人物是Albert Lee.Jerry Donohue.或者是Hellecaster,是一种乡村吉他的技巧。竞霄的偶像Zakk也把这种技法用在了他的一些乡村风格的重金属的演奏当中~(乡村金属?呵呵。)
        有人该问了,那不就是手指与拨片双拨吗~有什么的还叫“Chicken Picking”搞的像九阴白骨爪那么神秘……大家可能注意到Tommy Emmanuel的Mombasa就用到了手指与拨片双拨的技巧。但是这不能算是“Chicken Picking”而实际上是“hybird picking”。“Chicken Picking”一定要在低失真下进行~活泼、俏皮、旋律也很复杂~建议大家多听听一些乡村乐就知道了。呵呵。


        下面这一条简单的“Chicken Picking”练习是来自于竞霄的偶像Zakk~练习时要用Pick与中指双拨~怎么?像鸡爪子一样很难看吗?呵呵。要不怎么叫“鸡拨”呢!
                                                         
E||------------------------------|------------------------------|
B||------------------------------|--------3-----5-----3h-5--|
G||--------3-----5-----3h-5--|------------------------------|
D||------------------------------|--3h-5-----5-----5--------|
A||--3h-5-----5-----5--------|------------------------------|
E||------------------------------|------------------------------|


                                                                          
--------3-----5-----3h-5--|--------3-----6-----3h-6--|-------------------|
------------------------------|------------------------------|--6b---------------|
--3h-5-----5-----5--------|--3h-6-----6-----6--------|-------------------|
------------------------------|------------------------------|-------------------|
------------------------------|------------------------------|-------------------|
------------------------------|------------------------------|-------------------|


                    
        “Chicken Picking”时一定注意要用左手消音,有意思的是你会感觉到这个声音也像是鸡在叫~下面又是一个练习,也是出自于Zakk ~ 因为在下太喜欢Zakk了,呵呵。要弹的非常快。



                                                                                
E||--------------------------------------------------------------------------------------------------------|
B||----------------12--------------------12--------------------12--------------------12------------|
G||*-----12-15----15-12----12-15----15-12----12-15----15-12----12-15----15-12-*|
D||*--14--------------------14--------------------14--------------------14------------------------*|
A||--------------------------------------------------------------------------------------------------------|
E||--------------------------------------------------------------------------------------------------------|


        可能大家觉得Zakk的“Chicken Picking”练习不够原汁原味,那么就来换个试试下面这个吧。呵呵。其实我发此文的目的也是希望抛砖引玉,恳请大家多指点交流。


谱子图片地址:

http://www.drum8.com/bbs/UploadFile/2005-9/200591812151692003.gif

将是九阴白骨爪还是鸡爪子?关于“Chicken Picking”加入网摘:

365Key  | 新浪ViVi  | 和讯网摘  | 天极网摘  | POCO网摘 

是九阴白骨爪还是鸡爪子?关于“Chicken Picking”文章录入:吉他教程录入:admin    责任编辑:admin 

...
发表评论】【加入收藏】【告诉好友】【打印此文】【关闭窗口