.........

您现在的位置: 中国乐手网 >> 吉他技术专题 >> 电吉他 >> 电吉他教程 >> 吉他教程正文
...

您想找的吉他教程是:

...

摇滚金属 - 第二课

作者:未知    吉他教程来源:蓝色空间    点击数:518    更新时间:2005-5-22
   

今天我们学习重力和弦(power chord)。重力和弦一般只包括根音和5音,根音的音名就是和弦的名称。之所以叫重力和弦,是因为它的音色沉重有力,特别是加上失真效果之后。
上次的课中我们学到了半音和全音音程,在这次课的开始我们要学习一个新的音程:纯五度。一个纯五度等于七个半音的和,也就是说在吉他指板上,两个音程为纯五度的音在同一根弦上相距7个品位。这样的两个音就可以组成最基本的重力和弦。既然是和弦,就需要在两根弦上同时奏响,因此我们要找到纯五度的两个音在相邻两根弦上的指型。下面就是纯五度或说最基本的重力和弦的例子:

E|----------------|
B|----------------|
G|----------------|
D|--------5-------|
A|--------3-------|
E|----------------|

在A弦3品上的C音是根音,C的五度音是G,它在D弦5品上。这是一个C重力和弦或叫做C5。记住这个和弦指型(食指按根音,无名指按5音,有人是用小指按5音),在低音四根弦上你可来回移动它,想弹奏什么和弦,只要找到根音的位置就行了。比如你要弹G和弦,首先找到根音G在E弦3品,因此只要把指型移到五、六弦上第三把位即可:
E|----------------|
B|----------------|
G|----------------|
D|----------------|
A|--------5-------|
E|--------3-------|

下面是一些重力和弦的变异:
E|---------------|---------------|---------------|
B|---------------|---------------|---------------|
G|-------5-------|-------5-------|---------------|
D|-------5-------|-------5-------|---------------|
A|-------3-------|-------3-------|-------3-------|
E|---------------|-------3-------|-------3-------|

在第一个例子里,我们在5音上面又加了一个根音,这也一种非常普遍的重力和弦型。后加的这个高音使和弦听起来更明亮了一点。在第二个例子中,除了高音的根音外,又加了一个低八度的5音。相比之下,两个音的重力和弦是最容易移动的。
第三个例子中,去掉了例二中的两个高音,只剩下两个低音,但在这两个音中5音是低音。这是另外一个很重要的重力和弦指型,它可叫做"转位"重力和弦,你可以把它看成是颠倒过来的重力和弦。
现在我们将已学到的重力和弦知识与上节课所讲的小调音阶结合起来,写出E小调中的所有重力和弦:

    I  II  iii  IV  V  vi  vii  I
E|-------------------------------------------------|
B|-------------------------------------------------|
G|-----------------------------------2----4--------|
D|--------------------2----4----5----0----2--------|
A|-----2----4----5----0----2----3------------------|
E|-----0----2----3---------------------------------|

在六线谱上方的罗马数字代表着和弦的级数。同一个1-5重力和弦在指板的不同位置都能按出来,比如上面开头和结尾的两个一级和弦(E),当然不同位置弹奏出的和弦,虽然有的音高一样,但音色会有很大不同。

将摇滚金属 - 第二课加入网摘:

365Key  | 新浪ViVi  | 和讯网摘  | 天极网摘  | POCO网摘 

摇滚金属 - 第二课文章录入:吉他教程录入:admin    责任编辑:admin 

...
  • 上一篇吉他教程:
  • 下一篇吉他教程:
  • 发表评论】【加入收藏】【告诉好友】【打印此文】【关闭窗口